Two Methods to Dying
Saturday, August 4, 2007 // 0 replies
6:10 PM
Today was the day of the 2.4km NAPFA run, something you would not want to be ill-prepared for. However, this was the case; following my 7-Eleven QuickBites sandwich which was my breakfast, and the fun that was derived from playing Final Fantasy 9 on PSP distracted me from the run. Suddenly, the horn whistle was sounded and the damn thing began.

Two things to take into consideration here. Firstly, I had not attended BB regularly for the past half year. Second, I was nursing an urgent need to visit the toilet just like Samuel, except that he had it worse and got 12th position(among the girls though he started the same time as us).

Then, it was GGFiedness. I kept doing those half-throwups where you puke but the vomit doesn't erupt from the depths of the stomach, giving the unpleasant feeling of acidity in your gullet. Worse, I couldn't walk properly, and had to take the damn Benz cab to Eastpoint. The taxi driver must have been smiling all the way to the bank cause it cost a goddamn 11 bucks. Dang it la.

That's one instance where death was near. Now for the second one. Courtesy of Ultimate Guitar, I bring to you the tabs of the songs that BB will be playing for orientation. After all, band is better than playing soccer in front of the whole school(almost) right? No seems to be the correct answer, when you look at this:


Standard Tuning (EADGBE)

Intro

. . . . . . . . . . . .
E-------------------------| |-------------|
B-------------------------| x7 |-------------|
G-------------------------| |-------------|
D-15-15-16-16-15-15-13-13-| |-15-15-16-16-|
A-------------------------| |-------------|
E-------------------------| |-------------|
. . . . . . . . . . . .

Chorus

E-----------------------------------------------------------------|
B-----------------------------------------------------------------|
G-3-3-3-3-3-3-3-3-------------------------------------------------|
D-3-3-3-3-3-3-3-3-4-4-4-4-4-4-4-4-3-3-3-3-3-3-3-3-4-4-4-4-6-6-6-6-|
A-1-1-1-1-1-1-1-1-4-4-4-4-4-4-4-4-3-3-3-3-3-3-3-3-4-4-4-4-6-6-6-6-|
E-----------------2-2-2-2-2-2-2-2-1-1-1-1-1-1-1-1-2-2-2-2-4-4-4-4-|
x2
E---------------------------------------------------------------|
B---------------------------------------------------------------|
G-3-3-3-3-3-3-3-3-----------------------------------------------|
D-3-3-3-3-3-3-3-3-4-4-4-4-4-4-4-4-6-6-6-666-6-6-666-6-6-666-6-6-|
A-1-1-1-1-1-1-1-1-4-4-4-4-4-4-4-4-6-6-6-666-6-6-666-6-6-666-6-6-|
E-----------------2-2-2-2-2-2-2-2-4-4-4-444-4-4-444-4-4-444-4-4-|


Verse 1

Guitar 1
.................. ............ ............... ...............
E-------------------------------------------------------------------|
B-------------------------------------------------------------------|
G-33------------------3------------3---------------2----------------|
D-33------------------3------------3---------------2----------------|
A-111111111111111111111111111111111111111111111111100000000---------|
E----------------------------------------------------------11111111-|
.................. ............ ............... ...............

............... ............... ............... ................
E-------------------------------------------------------------------|
B-------------------------------------------------------------------|
G-----------------2---------------3---------------2-----------------|
D-3---------------2---------------3---------------2-----------------|
A-3---------------00000000000000001111111111111111000000000---------|
E-1111111111111111-----------------------------------------11111111-|
............... ............... ............... ................

........................
E---------------------------|
B---------------------------|
G---------------------------|
D-3-------------------------|
A-3-------------------------|
E-1111111111111111111111111-|
........................

Guitar 2
E-----------------------|
B-----------------------|
G-------------16-14-13~-|
D-15-17-18-18-----------|
A-----------------------|
E-----------------------|

(comes in half way through Verse)
. . . . . . . . . . . .
E-------------------------| |-------------|
B-------------------------| x7 |-------------|
G-------------------------| |-------------|
D-15-15-16-16-15-15-13-13-| |-15-15-16-16-|
A-------------------------| |-------------|
E-------------------------| |-------------|
. . . . . . . . . . . .

<>


Verse 2 (Both Guitar's Acoustic)

Guitar 1
D Dm C D (Build Up strum)
E-xx-11-x-1-xx-22--x2-x-22-x-2-x-22-x-00-| |-1111111111111111-|
B-xx-33-x-3-xx-33--x3-x-33-x-3-x-33-x-11-| x4 |-3333333333333333-|
G-xx-22-x-2-xx-22--x2-x-22-x-2-x-22-x-00-| |-2222222222222222-|
D-xx-00-x-0-xx-00--x0-x-00-x-0-x-00-x-22-| |-0000000000000000-|
A-xx-xx-x-x-xx-xx--xx-x-xx-x-x-x-xx-x-33-| |-xxxxxxxxxxxxxxxx-|
E-xx-xx-x-x-xx-xx--xx-x-xx-x-x-x-xx-x-00-| |-xxxxxxxxxxxxxxxx-|
D Dm C

Guitar 2 (comes in half way through Verse)

* = Tremolo Pick note eight times.
E---------------------|
B--18*--16*--14*--13*-|
G---------------------|
D---------------------|
A---------------------|
E---------------------|

E---------------------------------------------------|
B-11-11-13-13-14-14-16-16---16-16-16-16-18-18-18-18-|
G---------------------------------------------------|
D---------------------------------------------------|
A---------------------------------------------------|
E---------------------------------------------------|

E-------------------------------------------------|
B-16-18-16-18-16-18-16-18-16-18-16-18-16-18-16-18-|
G-------------------------------------------------|
D-------------------------------------------------|
A-------------------------------------------------|
E-------------------------------------------------|


Bridge/Pre Chorus

Guitar 1 ........
E------------------------------------------|
B------------------------------------------|
G-3\------------3\--------3333333333333333-|
D-3\------------3\--------3333333333333333-|
A-1\------------1\--------1111111111111111-|
E------------------------------------------|
........

(Guitar 2: Pickslide)


<>

End on:
E----------|
B----------|
G-----3----|
D-----3----| & Let Ring
A-----1----|
E----------|

Holy shit, do you see the part with the x, 1, 2 and 3? And there's still another song:

C#m7 Asus2 Esus2 Bsus4 Bsus4/3 E
e|---0-------0-------0-------0-------0------0-------------------------------|
B|---0-------0-------0-------0-------0------0-------------------------------|
G|---4-------2-------4-------9-------8------1-------------------------------|
D|---2-------2-------4-------9-------9------2-------------------------------|
A|---4-------0-------2-------9-------9------2-------------------------------|
E|---x-------x-------x-------x-------x------0-------------------------------|

CHORDS FOR BRIDGE:
*C#m7 C#m C#7 F#m G#m A B
e|---4------4-----4----2-------4------5-----7-------------------------------|
B|---5------5-----6----2-------4------5-----7-------------------------------|
G|---4------6-----4----2-------4------6-----8-------------------------------|
D|---6------6-----6----4-4-4---6-6-6--7-7---9-------------------------------|
A|---4------4-----4----4-------6------7-----9-------------------------------|
E|---x------x-----x----2-------4------5-----7-------------------------------|

Intro:

C#m7 Asus2 Esus2 Bsus4 Bsus4/3
C#m7 Asus2 Esus2

e|--+12-----+7-16-----------------------------------------------------------|
B|--+12-+12------14---------------------------------------------------------|
G|--------------------------------------------------------------------------|
D|--------------------------------------------------------------------------|
A|--------------------------------------------------------------------------|
E|--------------------------------------------------------------------------|

I shall not reveal the song titles here in order to preserve secrecy for the sake of copyright. But damn, this is hard.

Labels:


thisblog ;

open since some obscure date
currently addicted to ecchi

theauthor ;

Yui
16
4th May
Music, manga and backdooring are life's essentials.

tagboard ;




J-pop reviews ;

Beyond the Sea
links ;

baochuan| chinyee| eugene| felicia| leongying| songleng| terie| wanzhen| yanchin| yeni| yingzhi| yuncheng|
media ;



credits ;

layout: ikki|paradise
images: flickr|last.fm
codes&help: w3 |blogskins